ISO-10303-21;
HEADER;
FILE_DESCRIPTION (( 'STEP AP203' ),
    '1' );
FILE_NAME ('Q-OZHWP-R2-25.4-266-M.STEP',
    '2020-12-22T09:18:37',
    ( '' ),
    ( '' ),
    'SwSTEP 2.0',
    'SolidWorks 2020',
    '' );
FILE_SCHEMA (( 'CONFIG_CONTROL_DESIGN' ));
ENDSEC;

DATA;
#1 = DIRECTION ( 'NONE',  ( 0.000000000000000000, 0.000000000000000000, 1.000000000000000000 ) ) ;
#2 = VECTOR ( 'NONE', #122, 1000.000000000000000 ) ;
#3 = PERSON_AND_ORGANIZATION_ROLE ( 'design_owner' ) ;
#4 = COORDINATED_UNIVERSAL_TIME_OFFSET ( 8, 0, .AHEAD. ) ;
#5 = PRODUCT_RELATED_PRODUCT_CATEGORY ( 'detail', '', ( #87 ) ) ;
#6 = COORDINATED_UNIVERSAL_TIME_OFFSET ( 8, 0, .AHEAD. ) ;
#7 = DATE_TIME_ROLE ( 'creation_date' ) ;
#8 = PRODUCT_DEFINITION ( 'UNKNOWN', '', #60, #56 ) ;
#9 = APPROVAL_DATE_TIME ( #59, #34 ) ;
#10 = VERTEX_POINT ( 'NONE', #139 ) ;
#11 = PLANE ( 'NONE',  #54 ) ;
#12 = FACE_OUTER_BOUND ( 'NONE', #136, .T. ) ;
#13 = PRODUCT_DEFINITION_SHAPE ( 'NONE', 'NONE',  #8 ) ;
#14 = CC_DESIGN_APPROVAL ( #147, ( #8 ) ) ;
#15 = DIRECTION ( 'NONE',  ( -1.000000000000000000, -0.000000000000000000, -0.000000000000000000 ) ) ;
#16 = DIRECTION ( 'NONE',  ( -1.000000000000000000, -0.000000000000000000, -0.000000000000000000 ) ) ;
#17 = CC_DESIGN_DATE_AND_TIME_ASSIGNMENT ( #129, #7, ( #8 ) ) ;
#18 = AXIS2_PLACEMENT_3D ( 'NONE', #163, #42, #164 ) ;
#19 = SHAPE_DEFINITION_REPRESENTATION ( #13, #53 ) ;
#20 = DATE_TIME_ROLE ( 'classification_date' ) ;
#21 = APPROVAL_PERSON_ORGANIZATION ( #154, #147, #141 ) ;
#22 = DIRECTION ( 'NONE',  ( -1.000000000000000000, -0.000000000000000000, -0.000000000000000000 ) ) ;
#23 = AXIS2_PLACEMENT_3D ( 'NONE', #88, #15, #107 ) ;
#24 = APPLICATION_CONTEXT ( 'configuration controlled 3d designs of mechanical parts and assemblies' ) ;
#25 = EDGE_LOOP ( 'NONE', ( #137, #151, #174, #152 ) ) ;
#26 = DIRECTION ( 'NONE',  ( -0.000000000000000000, 0.000000000000000000, 1.000000000000000000 ) ) ;
#27 = DIRECTION ( 'NONE',  ( 0.000000000000000000, 0.000000000000000000, 1.000000000000000000 ) ) ;
#28 = PERSON_AND_ORGANIZATION ( #160, #169 ) ;
#29 = LOCAL_TIME ( 17, 18, 37.00000000000000000, #4 ) ;
#30 = APPROVAL_DATE_TIME ( #84, #132 ) ;
#31 = PERSON_AND_ORGANIZATION ( #160, #169 ) ;
#32 = PERSON_AND_ORGANIZATION ( #160, #169 ) ;
#33 = APPROVAL_PERSON_ORGANIZATION ( #31, #132, #156 ) ;
#34 = APPROVAL ( #43, 'UNSPECIFIED' ) ;
#35 = ORIENTED_EDGE ( 'NONE', *, *, #57, .F. ) ;
#36 = ADVANCED_FACE ( 'NONE', ( #12 ), #11, .F. ) ;
#37 = CYLINDRICAL_SURFACE ( 'NONE', #23, 12.69999999999999929 ) ;
#38 = CARTESIAN_POINT ( 'NONE',  ( -3.000000000000000000, 0.000000000000000000, 12.69999999999999929 ) ) ;
#39 = DIRECTION ( 'NONE',  ( -1.000000000000000000, -0.000000000000000000, -0.000000000000000000 ) ) ;
#40 = CIRCLE ( 'NONE', #90, 12.69999999999999929 ) ;
#41 = CARTESIAN_POINT ( 'NONE',  ( 3.000000000000001776, 0.000000000000000000, 0.000000000000000000 ) ) ;
#42 = DIRECTION ( 'NONE',  ( 1.000000000000000000, 0.000000000000000000, 0.000000000000000000 ) ) ;
#43 = APPROVAL_STATUS ( 'not_yet_approved' ) ;
#44 = DATE_AND_TIME ( #166, #149 ) ;
#45 = AXIS2_PLACEMENT_3D ( 'NONE', #106, #16, #143 ) ;
#46 = DIRECTION ( 'NONE',  ( -1.000000000000000000, 0.000000000000000000, -0.000000000000000000 ) ) ;
#47 = ORIENTED_EDGE ( 'NONE', *, *, #98, .F. ) ;
#48 = EDGE_LOOP ( 'NONE', ( #75, #85, #104, #153 ) ) ;
#49 = EDGE_CURVE ( 'NONE', #101, #10, #116, .T. ) ;
#50 = VERTEX_POINT ( 'NONE', #119 ) ;
#51 =( NAMED_UNIT ( * ) SI_UNIT ( $, .STERADIAN. ) SOLID_ANGLE_UNIT ( ) );
#52 = MANIFOLD_SOLID_BREP ( 'Ðý×', #97 ) ;
#53 = ADVANCED_BREP_SHAPE_REPRESENTATION ( 'Q-OZHWP-R2-25.4-266-M', ( #52, #168 ), #123 ) ;
#54 = AXIS2_PLACEMENT_3D ( 'NONE', #100, #46, #26 ) ;
#55 = FACE_OUTER_BOUND ( 'NONE', #25, .T. ) ;
#56 = DESIGN_CONTEXT ( 'detailed design', #24, 'design' ) ;
#57 = EDGE_CURVE ( 'NONE', #171, #50, #173, .T. ) ;
#58 = PERSON_AND_ORGANIZATION ( #160, #169 ) ;
#59 = DATE_AND_TIME ( #113, #110 ) ;
#60 = PRODUCT_DEFINITION_FORMATION_WITH_SPECIFIED_SOURCE ( 'ANY', '', #87, .NOT_KNOWN. ) ;
#61 = CARTESIAN_POINT ( 'NONE',  ( 3.000000000000001776, 0.000000000000000000, 0.000000000000000000 ) ) ;
#62 = CC_DESIGN_SECURITY_CLASSIFICATION ( #117, ( #60 ) ) ;
#63 = AXIS2_PLACEMENT_3D ( 'NONE', #161, #22, #64 ) ;
#64 = DIRECTION ( 'NONE',  ( 0.000000000000000000, 0.000000000000000000, 1.000000000000000000 ) ) ;
#65 = CC_DESIGN_PERSON_AND_ORGANIZATION_ASSIGNMENT ( #28, #3, ( #87 ) ) ;
#66 = COORDINATED_UNIVERSAL_TIME_OFFSET ( 8, 0, .AHEAD. ) ;
#67 = CARTESIAN_POINT ( 'NONE',  ( -3.000000000000000000, 1.555301434917138433E-15, -12.69999999999999929 ) ) ;
#68 = AXIS2_PLACEMENT_3D ( 'NONE', #61, #114, #99 ) ;
#69 = DIRECTION ( 'NONE',  ( 0.000000000000000000, 0.000000000000000000, 1.000000000000000000 ) ) ;
#70 = ADVANCED_FACE ( 'NONE', ( #159 ), #89, .F. ) ;
#71 = DIRECTION ( 'NONE',  ( 1.000000000000000000, 0.000000000000000000, 0.000000000000000000 ) ) ;
#72 = PERSON_AND_ORGANIZATION_ROLE ( 'creator' ) ;
#73 = EDGE_CURVE ( 'NONE', #10, #101, #148, .T. ) ;
#74 = COORDINATED_UNIVERSAL_TIME_OFFSET ( 8, 0, .AHEAD. ) ;
#75 = ORIENTED_EDGE ( 'NONE', *, *, #57, .T. ) ;
#76 = ORIENTED_EDGE ( 'NONE', *, *, #49, .T. ) ;
#77 = APPROVAL_STATUS ( 'not_yet_approved' ) ;
#78 = CC_DESIGN_PERSON_AND_ORGANIZATION_ASSIGNMENT ( #58, #112, ( #117 ) ) ;
#79 = APPLICATION_PROTOCOL_DEFINITION ( 'international standard', 'config_control_design', 1994, #24 ) ;
#80 = DIRECTION ( 'NONE',  ( -1.000000000000000000, -0.000000000000000000, -0.000000000000000000 ) ) ;
#81 = DIRECTION ( 'NONE',  ( -1.000000000000000000, -0.000000000000000000, -0.000000000000000000 ) ) ;
#82 = CARTESIAN_POINT ( 'NONE',  ( 3.000000000000001776, 0.000000000000000000, 12.69999999999999929 ) ) ;
#83 = CALENDAR_DATE ( 2020, 22, 12 ) ;
#84 = DATE_AND_TIME ( #167, #29 ) ;
#85 = ORIENTED_EDGE ( 'NONE', *, *, #162, .T. ) ;
#86 = ORIENTED_EDGE ( 'NONE', *, *, #73, .T. ) ;
#87 = PRODUCT ( 'Q-OZHWP-R2-25.4-266-M', 'Q-OZHWP-R2-25.4-266-M', '', ( #142 ) ) ;
#88 = CARTESIAN_POINT ( 'NONE',  ( -3.000000000000000000, 0.000000000000000000, 0.000000000000000000 ) ) ;
#89 = PLANE ( 'NONE',  #18 ) ;
#90 = AXIS2_PLACEMENT_3D ( 'NONE', #41, #80, #1 ) ;
#91 =( NAMED_UNIT ( * ) PLANE_ANGLE_UNIT ( ) SI_UNIT ( $, .RADIAN. ) );
#92 = LINE ( 'NONE', #38, #118 ) ;
#93 = AXIS2_PLACEMENT_3D ( 'NONE', #124, #39, #69 ) ;
#94 = APPLICATION_CONTEXT ( 'configuration controlled 3d designs of mechanical parts and assemblies' ) ;
#95 = SECURITY_CLASSIFICATION_LEVEL ( 'unclassified' ) ;
#96 = PERSON_AND_ORGANIZATION ( #160, #169 ) ;
#97 = CLOSED_SHELL ( 'NONE', ( #115, #135, #36, #70 ) ) ;
#98 = EDGE_CURVE ( 'NONE', #50, #171, #40, .T. ) ;
#99 = DIRECTION ( 'NONE',  ( 0.000000000000000000, 0.000000000000000000, 1.000000000000000000 ) ) ;
#100 = CARTESIAN_POINT ( 'NONE',  ( 3.000000000000000888, 12.69999999999999929, 0.000000000000000000 ) ) ;
#101 = VERTEX_POINT ( 'NONE', #105 ) ;
#102 = EDGE_LOOP ( 'NONE', ( #86, #76 ) ) ;
#103 = APPROVAL_PERSON_ORGANIZATION ( #96, #34, #111 ) ;
#104 = ORIENTED_EDGE ( 'NONE', *, *, #73, .F. ) ;
#105 = CARTESIAN_POINT ( 'NONE',  ( -3.000000000000001776, 1.555301434917138433E-15, -12.69999999999999929 ) ) ;
#106 = CARTESIAN_POINT ( 'NONE',  ( -3.000000000000000000, 0.000000000000000000, 0.000000000000000000 ) ) ;
#107 = DIRECTION ( 'NONE',  ( 0.000000000000000000, 0.000000000000000000, 1.000000000000000000 ) ) ;
#108 = CYLINDRICAL_SURFACE ( 'NONE', #45, 12.69999999999999929 ) ;
#109 = CC_DESIGN_PERSON_AND_ORGANIZATION_ASSIGNMENT ( #157, #127, ( #8 ) ) ;
#110 = LOCAL_TIME ( 17, 18, 37.00000000000000000, #170 ) ;
#111 = APPROVAL_ROLE ( '' ) ;
#112 = PERSON_AND_ORGANIZATION_ROLE ( 'classification_officer' ) ;
#113 = CALENDAR_DATE ( 2020, 22, 12 ) ;
#114 = DIRECTION ( 'NONE',  ( -1.000000000000000000, -0.000000000000000000, -0.000000000000000000 ) ) ;
#115 = ADVANCED_FACE ( 'NONE', ( #155 ), #108, .T. ) ;
#116 = CIRCLE ( 'NONE', #63, 12.69999999999999929 ) ;
#117 = SECURITY_CLASSIFICATION ( '', '', #95 ) ;
#118 = VECTOR ( 'NONE', #81, 1000.000000000000000 ) ;
#119 = CARTESIAN_POINT ( 'NONE',  ( 3.000000000000001776, 1.555301434917138433E-15, -12.69999999999999929 ) ) ;
#120 = LOCAL_TIME ( 17, 18, 37.00000000000000000, #6 ) ;
#121 = CC_DESIGN_PERSON_AND_ORGANIZATION_ASSIGNMENT ( #150, #72, ( #60 ) ) ;
#122 = DIRECTION ( 'NONE',  ( -1.000000000000000000, -0.000000000000000000, -0.000000000000000000 ) ) ;
#123 =( GEOMETRIC_REPRESENTATION_CONTEXT ( 3 ) GLOBAL_UNCERTAINTY_ASSIGNED_CONTEXT ( ( #128 ) ) GLOBAL_UNIT_ASSIGNED_CONTEXT ( ( #144, #91, #51 ) ) REPRESENTATION_CONTEXT ( 'NONE', 'WORKASPACE' ) );
#124 = CARTESIAN_POINT ( 'NONE',  ( -3.000000000000001776, 0.000000000000000000, 0.000000000000000000 ) ) ;
#125 = CARTESIAN_POINT ( 'NONE',  ( 0.000000000000000000, 0.000000000000000000, 0.000000000000000000 ) ) ;
#126 = EDGE_CURVE ( 'NONE', #171, #10, #92, .T. ) ;
#127 = PERSON_AND_ORGANIZATION_ROLE ( 'creator' ) ;
#128 = UNCERTAINTY_MEASURE_WITH_UNIT (LENGTH_MEASURE( 1.000000000000000082E-05 ), #144, 'distance_accuracy_value', 'NONE');
#129 = DATE_AND_TIME ( #83, #120 ) ;
#130 = CALENDAR_DATE ( 2020, 22, 12 ) ;
#131 = DATE_AND_TIME ( #130, #138 ) ;
#132 = APPROVAL ( #158, 'UNSPECIFIED' ) ;
#133 = APPROVAL_DATE_TIME ( #131, #147 ) ;
#134 = CC_DESIGN_APPROVAL ( #132, ( #117 ) ) ;
#135 = ADVANCED_FACE ( 'NONE', ( #55 ), #37, .T. ) ;
#136 = EDGE_LOOP ( 'NONE', ( #35, #47 ) ) ;
#137 = ORIENTED_EDGE ( 'NONE', *, *, #162, .F. ) ;
#138 = LOCAL_TIME ( 17, 18, 37.00000000000000000, #66 ) ;
#139 = CARTESIAN_POINT ( 'NONE',  ( -3.000000000000001776, 0.000000000000000000, 12.69999999999999929 ) ) ;
#140 = CC_DESIGN_DATE_AND_TIME_ASSIGNMENT ( #44, #20, ( #117 ) ) ;
#141 = APPROVAL_ROLE ( '' ) ;
#142 = MECHANICAL_CONTEXT ( 'NONE', #94, 'mechanical' ) ;
#143 = DIRECTION ( 'NONE',  ( 0.000000000000000000, 0.000000000000000000, 1.000000000000000000 ) ) ;
#144 =( LENGTH_UNIT ( ) NAMED_UNIT ( * ) SI_UNIT ( .MILLI., .METRE. ) );
#145 = CC_DESIGN_APPROVAL ( #34, ( #60 ) ) ;
#146 = APPLICATION_PROTOCOL_DEFINITION ( 'international standard', 'config_control_design', 1994, #94 ) ;
#147 = APPROVAL ( #77, 'UNSPECIFIED' ) ;
#148 = CIRCLE ( 'NONE', #93, 12.69999999999999929 ) ;
#149 = LOCAL_TIME ( 17, 18, 37.00000000000000000, #74 ) ;
#150 = PERSON_AND_ORGANIZATION ( #160, #169 ) ;
#151 = ORIENTED_EDGE ( 'NONE', *, *, #98, .T. ) ;
#152 = ORIENTED_EDGE ( 'NONE', *, *, #49, .F. ) ;
#153 = ORIENTED_EDGE ( 'NONE', *, *, #126, .F. ) ;
#154 = PERSON_AND_ORGANIZATION ( #160, #169 ) ;
#155 = FACE_OUTER_BOUND ( 'NONE', #48, .T. ) ;
#156 = APPROVAL_ROLE ( '' ) ;
#157 = PERSON_AND_ORGANIZATION ( #160, #169 ) ;
#158 = APPROVAL_STATUS ( 'not_yet_approved' ) ;
#159 = FACE_OUTER_BOUND ( 'NONE', #102, .T. ) ;
#160 = PERSON ( 'UNSPECIFIED', 'UNSPECIFIED', 'UNSPECIFIED', ('UNSPECIFIED'), ('UNSPECIFIED'), ('UNSPECIFIED') ) ;
#161 = CARTESIAN_POINT ( 'NONE',  ( -3.000000000000001776, 0.000000000000000000, 0.000000000000000000 ) ) ;
#162 = EDGE_CURVE ( 'NONE', #50, #101, #175, .T. ) ;
#163 = CARTESIAN_POINT ( 'NONE',  ( -3.000000000000000888, 12.69999999999999929, 0.000000000000000000 ) ) ;
#164 = DIRECTION ( 'NONE',  ( 0.000000000000000000, 0.000000000000000000, -1.000000000000000000 ) ) ;
#165 = PERSON_AND_ORGANIZATION_ROLE ( 'design_supplier' ) ;
#166 = CALENDAR_DATE ( 2020, 22, 12 ) ;
#167 = CALENDAR_DATE ( 2020, 22, 12 ) ;
#168 = AXIS2_PLACEMENT_3D ( 'NONE', #125, #27, #71 ) ;
#169 = ORGANIZATION ( 'UNSPECIFIED', 'UNSPECIFIED', '' ) ;
#170 = COORDINATED_UNIVERSAL_TIME_OFFSET ( 8, 0, .AHEAD. ) ;
#171 = VERTEX_POINT ( 'NONE', #82 ) ;
#172 = CC_DESIGN_PERSON_AND_ORGANIZATION_ASSIGNMENT ( #32, #165, ( #60 ) ) ;
#173 = CIRCLE ( 'NONE', #68, 12.69999999999999929 ) ;
#174 = ORIENTED_EDGE ( 'NONE', *, *, #126, .T. ) ;
#175 = LINE ( 'NONE', #67, #2 ) ;
ENDSEC;
END-ISO-10303-21;
